Thursday, June 1, 2017

Chord Ed Sheeran - Perfect

Chord Ed Sheeran - Perfect
Chord Ed Sheeran - Perfect




[INTRO]
G

[VERSE]

          G        Em
I found a love for me
             C                            D
Darling just dive right in, and follow my lead
               G           Em
Well I found a girl beautiful and sweet
         C                                    D
I never knew you were the someone waiting for me


[PRE-CHORUS]

                                 G
Cause we were just kids when we fell in love
             Em                     C                G  D
Not knowing what it was, I will not give you up this ti-ime
                   G                         Em
But darling just kiss me slow, your heart is all I own
            C                   D
And in your eyes you’re holding mine


[CHORUS]

      Em   C             G          D              Em
Baby, I’m dancing in the dark, with you between my arms
C                G     D                Em
Barefoot on the grass, listening to our favorite song
          C                G                 D              Em
When you said you looked a mess, I whispered underneath my breath
         C                G        D             G
But you heard it, darling you look perfect tonight


G  D/F#  Em  D  C  -  D  -  


[VERSE]

               G                    Em
Well I found a woman, stronger than anyone I know
                C                                        D
She shares my dreams, I hope that someday I’ll share her home
           G             Em
I found a love, to carry more than just my secrets
         C                              D
To carry love, to carry children of our own


[PRE-CHORUS]

                              G                     Em 
We are still kids, but we’re so in love, fighting against all odds
                  C               G  D
I know that we’ll be alright this ti-ime
               G                            Em 
Darling just hold my hand, be my girl, I’ll be your man
          C              D
I see my future in your eyes


[CHORUS]

      Em   C              G         D              Em
Baby, I’m dancing in the dark, with you between my arms
C                G     D                Em
Barefoot on the grass, listening to our favorite song
        C                G                D      
When I saw you in that dress, looking so beautiful
  Em       C                  G        D            G 
I don't deserve this, darling you look perfect tonight


[BRIDGE]

G  Em  C  D    


[CHORUS]

      Em   C              G         D              Em
Baby, I’m dancing in the dark, with you between my arms
C                G     D                Em
Barefoot on the grass, listening to our favorite song
        C              G               D             Em
I have faith in what I see, now I know I have met an angel
    C          G         D             
In person, and she looks perfect
      C                D                        G
No I don't deserve this, you look perfect tonight


G  D/F#  Em  D  C  -  D  -  | G

Versi 2

Chords
-------------
G      32003x  (hold 3rd fret down of 2nd string for all chords)
Em7    02203x
Cadd9  x3203x
D      xx023x
D/F#   2x023x


Capo 1st fret


[Verse 1]
          G         Em7
I found a love for me
             Cadd9                        D
Darling just dive right in, and follow my lead
               G          Em7
Well I found a girl beautiful and sweet
             Cadd9                                 D 
Well I never knew you were the someone waiting for me


[Pre-Chorus 1]
N.C.                                
Cause we were just kids when we 
G                         Em7
Fell in love, not knowing what it was
           Cadd9            G D
I will not give you up this time
                 G                           Em7
But darling just kiss me slow, your heart is all I own
            Cadd9                 D 
And in your eyes you’re holding mine


[Chorus 1]
     Em7 Cadd9          G          D              Em7
Baby I’m dancing in the dark, with you between my arms
Cadd9           G      D                Em7
Barefoot on the grass, listening to our favorite song
         Cadd9             G                 D             Em7
When you said you looked a mess, I whispered underneath my breath
        Cadd9             G        D              G  D/F#  Em7  D  Cadd9  D      
But you heard it, darling you look perfect tonight


[Verse 2]
               G                    Em7
Well I found a woman, stronger than anyone I know
              Cadd9                                      D
She shares my dreams, I hope that someday I’ll share her home
          G              Em7
I found a love, to carry more than just my secrets
         Cadd9                          D
To carry love, to carry children of our own


[Pre-Chorus 2]
                             G                     Em7
We are still kids, but we’re so in love, fighting against all odds
       Cadd9                 G D 
I know we’ll be alright this time
             G                              Em7 
Darling just hold my hand, be my girl, I’ll be your man
         Cadd9            D 
I see my future in your eyes


[Chorus 2]
     Em7 Cadd9          G          D              Em7
Baby I’m dancing in the dark, with you between my arms
Cadd9           G      D                Em7
Barefoot on the grass, listening to our favorite song
       Cadd9           G                 D      
When I saw you in that dress, looking so beautiful
  Em7     Cadd9               G        D        (G)    
I don't deserve this, darling you look perfect tonight


[Interlude]

Rhythm:
G  Em7  Cadd9  D

Solo:
e|-------------------|-------------------|------------------------------|-------------------------|
B|-------------------|-------------------|------------------------------|-------------------------|
G|-------------------|----0--------------|------------------------------|-------------------------|
D|------5---7-7/9~---|--9-7\5-7--/9\5----|------5---7-7/9---7p5-7-7/10--|--\5--5--7--7----5-------|
A|--5-7--------------|-------------------|--5-7-------------------- ----|----------------------5--|
E|-------------------|-------------------|------------------------------|-------------------------|

/ = slide-up
\ = slide-down
~ = vibrato
p = pull-off


[Chorus 3]
     Em7 Cadd9          G          D              Em7
Baby I’m dancing in the dark, with you between my arms
Cadd9           G      D                Em7
Barefoot on the grass, listening to our favorite song
       Cadd9           G               D             Em7
I have faith in what I see, now I know I have met an angel
   Cadd9       G         D             
In person, and she looks perfect 
     Cadd9             D                       G  D/F#  Em7  D  Cadd9  D  G    
No I don't deserve it, you look perfect tonight

Versi 3

[Intro]
G#

[Verse]
    G#                                     Fm
e|--------4----------|--------4----------|--------1-----------|--------1-------|
B|--------4----------|--------4----------|--------1-----------|--------1-------|
G|--------5----------|--------5----------|--------1-----------|--------1-------|
D|------6-6---6------|------6-6---6------|------3-3---3-------|------3-3---3---|
A|----6---6-----6----|----6---6-----6----|----3---3-----3-----|----3---3-----3-|
E|--4-----4----------|--4-----4----------|--1-----1-------1---|--1-----1-------|

    C#                                     D#
e|--------4--------|--------4--------|--------6-------|--------6-------|
B|--------6--------|--------6--------|--------8-------|--------8-------|
G|------6-6---6----|------6-6---6----|------8-8---8---|------8-8---8---|
D|----6---6-----6--|----6---6-----6--|----8---8-----8-|----8---8-----8-|
A|--4-----4--------|--4-----4--------|--6-----6-------|--6-----6-------|
E|-----------------|-----------------|----------------|----------------|  (x2)

[Verse]
           G#      Fm
I found a love for me
               C#                         D#
Darling just dive right in, and follow my lead
                G#                 Fm
Well I found a girl beautiful and sweet
          C#                                  D#
I never knew you were the someone waiting for me


[Pre-Chorus]
    G#                                     Fm
e|--------4----------|--------4----------|--------1-----------|--------1-------|
B|--------4----------|--------4----------|--------1-----------|--------1-------|
G|--------5----------|--------5----------|--------1-----------|--------1-------|
D|------6-6---6------|------6-6---6------|------3-3---3-------|------3-3---3---|
A|----6---6-----6----|----6---6-----6----|----3---3-----3-----|----3---3-----3-|
E|--4-----4----------|--4-----4----------|--1-----1-------1---|--1-----1-------|

    C#                                     D#
e|--------4--------|--------4--------|--------6-------|--------6-------|
B|--------6--------|--------6--------|--------8-------|--------8-------|
G|------6-6---6----|------6-6---6----|------8-8---8---|------8-8---8---|
D|----6---6-----6--|----6---6-----6--|----8---8-----8-|----8---8-----8-|
A|--4-----4--------|--4-----4--------|--6-----6-------|--6-----6-------|
E|-----------------|-----------------|----------------|----------------|  (x2)


[Pre-Chorus]
                                 G#
Cause we were just kids when we fell in love
            Fm                      C#               G# D#
Not knowing what it was, I will not give you up this ti-me
                 G#                          Fm
But darling just kiss me slow, your heart is all I own
             C#                 D#
And in your eyes you’re holding mine


[Chorus]
      Fm  C#             G#         D#             Fm
Baby, I’m dancing in the dark, with you between my arms
C#              G#     D#               Fm
Barefoot on the grass, listening to our favorite song
         C#                G#                D#            Fm
When you said you looked a mess, I whispered underneath my breath
        C#                G#       D#        G#     
But you heard it, darling you look perfect tonight

G#  D#  Fm  D#  C#  C#  D#  D#   


[Verse]
               G#                   Fm
Well I found a woman, stronger than anyone I know
              C#                                         D#
She shares my dreams, I hope that someday I’ll share her home
          G#             Fm
I found a love, to carry more than just my secrets
         C#                             D#
To carry love, to carry children of our own


[Pre-Chorus]
                             G#                    Fm 
We are still kids, but we’re so in love, fighting against all odds
                  C#              G#  D#
I know that we’ll be alright this ti-ime
             G#                             Fm 
Darling just hold my hand, be my girl, I’ll be your man
          C#            D#
I see my future in your eyes


[Chorus]
      Fm  C#             G#         D#             Fm
Baby, I’m dancing in the dark, with you between my arms
C#                G#    D#              Fm
Barefoot on the grass, listening to our favorite song
       C#              G#                D#      
When I saw you in that dress, looking so beautiful
  Fm      C#                  G#       D#        G#     
I don't deserve this, darling you look perfect tonight


[Bridge]
G#  Fm  C#  D#  G#*  D#*      * = played once (Chord placement shown below)

[Solo]
    G#                         Fm                                 C#                D#    G# D#
e|-------------------|-------------------|------------------------------|-------------------------|
B|-------------------|-------------------|------------------------------|-------------------------|
G|-------------------|-------------------|------------------------------|-------------------------|
D|------6--8/10~~~~--|-10p8\6--8~p6~h8p6-|------6--8/10~~~~-8p6-8-8/11~~|--8p6---8--8~~~--6--5~~~~|
A|--6h8--------------|-------------------|--6h8-------------------------|-------------------------|
E|-------------------|-------------------|------------------------------|-------------------------|



[Chorus]
D# G#  Fm  C#             G#         D#             Fm
Ba-by, I’m dancing in the dark, with you between my arms
C#              G#     D#               Fm
Barefoot on the grass, listening to our favorite song
       C#              G#              D#            Fm
I have faith in what I see, now I know I have met an angel
   C#          G#        D#             
In person, and she looks perfect tonight
     Bbm     C#        D#                 G#
No I don't deserve it, you look perfect tonight

[Outro]
G#  D#  Fm  D#  C#  C#  D#  D#  G#


Please rate if you liked this
************************************

| p  Pull-off
| h  hammer-on
| /  Slide up
| \  Slide down
| ~  Vibrato

************************************
 Suggest correction


EmoticonEmoticon